  0
SECTION
  2
HEADER
  9
$ACADVER
  1
AC1015
  9
$ACADMAINTVER
 70
     6
  9
$DWGCODEPAGE
  3
ANSI_1254
  9
$INSBASE
 10
0.0
 20
0.0
 30
0.0
  9
$EXTMIN
 10
0.0
 20
0.0
 30
0.0
  9
$EXTMAX
 10
279.4
 20
215.9
 30
0.0
  9
$LIMMIN
 10
0.0
 20
0.0
  9
$LIMMAX
 10
279.4
 20
215.9
  9
$ORTHOMODE
 70
     0
  9
$REGENMODE
 70
     1
  9
$FILLMODE
 70
     1
  9
$QTEXTMODE
 70
     0
  9
$MIRRTEXT
 70
     1
  9
$LTSCALE
 40
1.0
  9
$ATTMODE
 70
     1
  9
$TEXTSIZE
 40
3.5
  9
$TRACEWID
 40
1.0
  9
$TEXTSTYLE
  7
Standard
  9
$CLAYER
  8
0
  9
$CELTYPE
  6
ByLayer
  9
$CECOLOR
 62
   256
  9
$CELTSCALE
 40
1.0
  9
$DISPSILH
 70
     0
  9
$DIMSCALE
 40
1.0
  9
$DIMASZ
 40
3.5
  9
$DIMEXO
 40
1.0
  9
$DIMDLI
 40
3.75
  9
$DIMRND
 40
0.0
  9
$DIMDLE
 40
0.0
  9
$DIMEXE
 40
1.0
  9
$DIMTP
 40
0.0
  9
$DIMTM
 40
0.0
  9
$DIMTXT
 40
3.5
  9
$DIMCEN
 40
2.5
  9
$DIMTSZ
 40
0.0
  9
$DIMTOL
 70
     0
  9
$DIMLIM
 70
     0
  9
$DIMTIH
 70
     1
  9
$DIMTOH
 70
     1
  9
$DIMSE1
 70
     0
  9
$DIMSE2
 70
     0
  9
$DIMTAD
 70
     1
  9
$DIMZIN
 70
     0
  9
$DIMBLK
  1

  9
$DIMASO
 70
     1
  9
$DIMSHO
 70
     1
  9
$DIMPOST
  1

  9
$DIMAPOST
  1

  9
$DIMALT
 70
     0
  9
$DIMALTD
 70
     3
  9
$DIMALTF
 40
0.0393700787
  9
$DIMLFAC
 40
1.0
  9
$DIMTOFL
 70
     1
  9
$DIMTVP
 40
0.0
  9
$DIMTIX
 70
     0
  9
$DIMSOXD
 70
     0
  9
$DIMSAH
 70
     0
  9
$DIMBLK1
  1

  9
$DIMBLK2
  1

  9
$DIMSTYLE
  2
ISO-25
  9
$DIMCLRD
 70
     0
  9
$DIMCLRE
 70
     0
  9
$DIMCLRT
 70
     0
  9
$DIMTFAC
 40
1.0
  9
$DIMGAP
 40
1.524
  9
$DIMJUST
 70
     0
  9
$DIMSD1
 70
     0
  9
$DIMSD2
 70
     0
  9
$DIMTOLJ
 70
     0
  9
$DIMTZIN
 70
     0
  9
$DIMALTZ
 70
     0
  9
$DIMALTTZ
 70
     0
  9
$DIMUPT
 70
     0
  9
$DIMDEC
 70
     2
  9
$DIMTDEC
 70
     2
  9
$DIMALTU
 70
     2
  9
$DIMALTTD
 70
     3
  9
$DIMTXSTY
  7
Standard
  9
$DIMAUNIT
 70
     0
  9
$DIMADEC
 70
     2
  9
$DIMALTRND
 40
0.0
  9
$DIMAZIN
 70
     0
  9
$DIMDSEP
 70
    44
  9
$DIMATFIT
 70
     3
  9
$DIMFRAC
 70
     0
  9
$DIMLDRBLK
  1

  9
$DIMLUNIT
 70
     2
  9
$DIMLWD
 70
    -2
  9
$DIMLWE
 70
    -2
  9
$DIMTMOVE
 70
     0
  9
$LUNITS
 70
     2
  9
$LUPREC
 70
     2
  9
$SKETCHINC
 40
1.0
  9
$FILLETRAD
 40
10.0
  9
$AUNITS
 70
     0
  9
$AUPREC
 70
     2
  9
$MENU
  1
.
  9
$ELEVATION
 40
0.0
  9
$PELEVATION
 40
0.0
  9
$THICKNESS
 40
0.0
  9
$LIMCHECK
 70
     0
  9
$CHAMFERA
 40
0.0
  9
$CHAMFERB
 40
0.0
  9
$CHAMFERC
 40
0.0
  9
$CHAMFERD
 40
0.0
  9
$SKPOLY
 70
     0
  9
$TDCREATE
 40
2458985.665947234
  9
$TDUCREATE
 40
2458985.540947234
  9
$TDUPDATE
 40
2458985.665947489
  9
$TDUUPDATE
 40
2458985.540947489
  9
$TDINDWG
 40
0.0000000116
  9
$TDUSRTIMER
 40
0.0000000116
  9
$USRTIMER
 70
     1
  9
$ANGBASE
 50
0.0
  9
$ANGDIR
 70
     0
  9
$PDMODE
 70
     0
  9
$PDSIZE
 40
-1.0
  9
$PLINEWID
 40
0.0
  9
$SPLFRAME
 70
     0
  9
$SPLINETYPE
 70
     6
  9
$SPLINESEGS
 70
     8
  9
$HANDSEED
  5
D2
  9
$SURFTAB1
 70
     6
  9
$SURFTAB2
 70
     6
  9
$SURFTYPE
 70
     6
  9
$SURFU
 70
     6
  9
$SURFV
 70
     6
  9
$UCSBASE
  2

  9
$UCSNAME
  2

  9
$UCSORG
 10
0.0
 20
0.0
 30
0.0
  9
$UCSXDIR
 10
1.0
 20
0.0
 30
0.0
  9
$UCSYDIR
 10
0.0
 20
1.0
 30
0.0
  9
$UCSORTHOREF
  2

  9
$UCSORTHOVIEW
 70
     0
  9
$UCSORGTOP
 10
0.0
 20
0.0
 30
0.0
  9
$UCSORGBOTTOM
 10
0.0
 20
0.0
 30
0.0
  9
$UCSORGLEFT
 10
0.0
 20
0.0
 30
0.0
  9
$UCSORGRIGHT
 10
0.0
 20
0.0
 30
0.0
  9
$UCSORGFRONT
 10
0.0
 20
0.0
 30
0.0
  9
$UCSORGBACK
 10
0.0
 20
0.0
 30
0.0
  9
$PUCSBASE
  2

  9
$PUCSNAME
  2

  9
$PUCSORG
 10
0.0
 20
0.0
 30
0.0
  9
$PUCSXDIR
 10
1.0
 20
0.0
 30
0.0
  9
$PUCSYDIR
 10
0.0
 20
1.0
 30
0.0
  9
$PUCSORTHOREF
  2

  9
$PUCSORTHOVIEW
 70
     0
  9
$PUCSORGTOP
 10
0.0
 20
0.0
 30
0.0
  9
$PUCSORGBOTTOM
 10
0.0
 20
0.0
 30
0.0
  9
$PUCSORGLEFT
 10
0.0
 20
0.0
 30
0.0
  9
$PUCSORGRIGHT
 10
0.0
 20
0.0
 30
0.0
  9
$PUCSORGFRONT
 10
0.0
 20
0.0
 30
0.0
  9
$PUCSORGBACK
 10
0.0
 20
0.0
 30
0.0
  9
$USERI1
 70
     0
  9
$USERI2
 70
     0
  9
$USERI3
 70
     0
  9
$USERI4
 70
     0
  9
$USERI5
 70
     0
  9
$USERR1
 40
0.0
  9
$USERR2
 40
0.0
  9
$USERR3
 40
0.0
  9
$USERR4
 40
0.0
  9
$USERR5
 40
0.0
  9
$WORLDVIEW
 70
     1
  9
$SHADEDGE
 70
     3
  9
$SHADEDIF
 70
    70
  9
$TILEMODE
 70
     1
  9
$MAXACTVP
 70
    64
  9
$PINSBASE
 10
0.0
 20
0.0
 30
0.0
  9
$PLIMCHECK
 70
     0
  9
$PEXTMIN
 10
1.0000000000E+20
 20
1.0000000000E+20
 30
1.0000000000E+20
  9
$PEXTMAX
 10
-1.0000000000E+20
 20
-1.0000000000E+20
 30
-1.0000000000E+20
  9
$PLIMMIN
 10
0.0
 20
0.0
  9
$PLIMMAX
 10
420.0
 20
297.0
  9
$UNITMODE
 70
     0
  9
$VISRETAIN
 70
     1
  9
$PLINEGEN
 70
     0
  9
$PSLTSCALE
 70
     1
  9
$TREEDEPTH
 70
  3020
  9
$CMLSTYLE
  2
Standard
  9
$CMLJUST
 70
     0
  9
$CMLSCALE
 40
20.0
  9
$PROXYGRAPHICS
 70
     1
  9
$MEASUREMENT
 70
     1
  9
$CELWEIGHT
370
    -1
  9
$ENDCAPS
280
     0
  9
$JOINSTYLE
280
     0
  9
$LWDISPLAY
290
     1
  9
$INSUNITS
 70
     4
  9
$HYPERLINKBASE
  1

  9
$STYLESHEET
  1

  9
$XEDIT
290
     1
  9
$CEPSNTYPE
380
     0
  9
$PSTYLEMODE
290
     1
  9
$FINGERPRINTGUID
  2
{a7cd6c40-a023-4ae5-addb-34c3a4d0373a}
  9
$VERSIONGUID
  2
{FAEB1C32-E019-11D5-929B-00C0DF256EC4}
  9
$EXTNAMES
290
     1
  9
$PSVPSCALE
 40
0.0
  9
$OLESTARTUP
290
     0
  0
ENDSEC
  0
SECTION
  2
CLASSES
  0
CLASS
  1
ACDBDICTIONARYWDFLT
  2
AcDbDictionaryWithDefault
  3
ObjectDBX Classes
 90
        0
280
     0
281
     0
  0
CLASS
  1
VISUALSTYLE
  2
AcDbVisualStyle
  3
ObjectDBX Classes
 90
     4095
280
     0
281
     0
  0
CLASS
  1
MATERIAL
  2
AcDbMaterial
  3
ObjectDBX Classes
 90
     1153
280
     0
281
     0
  0
CLASS
  1
SCALE
  2
AcDbScale
  3
ObjectDBX Classes
 90
     1153
280
     0
281
     0
  0
CLASS
  1
TABLESTYLE
  2
AcDbTableStyle
  3
ObjectDBX Classes
 90
     4095
280
     0
281
     0
  0
CLASS
  1
MLEADERSTYLE
  2
AcDbMLeaderStyle
  3
ACDB_MLEADERSTYLE_CLASS
 90
     4095
280
     0
281
     0
  0
CLASS
  1
SUN
  2
AcDbSun
  3
SCENEOE
 90
     1153
280
     0
281
     0
  0
CLASS
  1
ACDBPLACEHOLDER
  2
AcDbPlaceHolder
  3
ObjectDBX Classes
 90
        0
280
     0
281
     0
  0
CLASS
  1
LAYOUT
  2
AcDbLayout
  3
ObjectDBX Classes
 90
        0
280
     0
281
     0
  0
ENDSEC
  0
SECTION
  2
TABLES
  0
TABLE
  2
VPORT
  5
8
330
0
100
AcDbSymbolTable
 70
     1
  0
VPORT
  5
29
330
8
100
AcDbSymbolTableRecord
100
AcDbViewportTableRecord
  2
*Active
 70
     0
 10
0.0
 20
0.0
 11
1.0
 21
1.0
 12
139.7
 22
107.95
 13
0.0
 23
0.0
 14
10.0
 24
10.0
 15
10.0
 25
10.0
 16
0.0
 26
0.0
 36
1.0
 17
0.0
 27
0.0
 37
0.0
 40
215.9
 41
1.2941176471
 42
50.0
 43
0.0
 44
0.0
 50
0.0
 51
0.0
 71
     0
 72
  2000
 73
     1
 74
     3
 75
     0
 76
     0
 77
     0
 78
     0
281
     0
 65
     1
110
0.0
120
0.0
130
0.0
111
1.0
121
0.0
131
0.0
112
0.0
122
1.0
132
0.0
 79
     0
146
0.0
  0
ENDTAB
  0
TABLE
  2
LTYPE
  5
5
330
0
100
AcDbSymbolTable
 70
     6
  0
LTYPE
  5
14
330
5
100
AcDbSymbolTableRecord
100
AcDbLinetypeTableRecord
  2
ByBlock
 70
     0
  3

 72
    65
 73
     0
 40
0.0
  0
LTYPE
  5
15
330
5
100
AcDbSymbolTableRecord
100
AcDbLinetypeTableRecord
  2
ByLayer
 70
     0
  3

 72
    65
 73
     0
 40
0.0
  0
LTYPE
  5
16
330
5
100
AcDbSymbolTableRecord
100
AcDbLinetypeTableRecord
  2
Continuous
 70
     0
  3
Solid line
 72
    65
 73
     0
 40
0.0
  0
LTYPE
  5
6E
330
5
100
AcDbSymbolTableRecord
100
AcDbLinetypeTableRecord
  2
HIDDEN
 70
     0
  3
Hidden __ __ __ __ __ __ __ __ __ __ __ __ __ __
 72
    65
 73
     2
 40
1.905
 49
1.27
 74
     0
 49
-0.635
 74
     0
  0
LTYPE
  5
6F
330
5
100
AcDbSymbolTableRecord
100
AcDbLinetypeTableRecord
  2
PHANTOM
 70
     0
  3
Phantom ______  __  __  ______  __  __  ______
 72
    65
 73
     6
 40
12.7
 49
6.35
 74
     0
 49
-1.27
 74
     0
 49
1.27
 74
     0
 49
-1.27
 74
     0
 49
1.27
 74
     0
 49
-1.27
 74
     0
  0
LTYPE
  5
70
330
5
100
AcDbSymbolTableRecord
100
AcDbLinetypeTableRecord
  2
CENTER
 70
     0
  3
Center ____ _ ____ _ ____ _ ____ _ ____ _ ____
 72
    65
 73
     4
 40
10.16
 49
6.35
 74
     0
 49
-1.27
 74
     0
 49
1.27
 74
     0
 49
-1.27
 74
     0
  0
LTYPE
  5
71
330
5
100
AcDbSymbolTableRecord
100
AcDbLinetypeTableRecord
  2
CENTERX2
 70
     0
  3
Center (2x) ________  __  ________  __  _____
 72
    65
 73
     4
 40
20.32
 49
12.7
 74
     0
 49
-2.54
 74
     0
 49
2.54
 74
     0
 49
-2.54
 74
     0
  0
LTYPE
  5
72
330
5
100
AcDbSymbolTableRecord
100
AcDbLinetypeTableRecord
  2
DOT2
 70
     0
  3
Dot (.5x) ........................................
 72
    65
 73
     2
 40
0.635
 49
0.0
 74
     0
 49
-0.635
 74
     0
  0
ENDTAB
  0
TABLE
  2
LAYER
  5
2
330
0
100
AcDbSymbolTable
 70
    17
  0
LAYER
  5
10
330
2
100
AcDbSymbolTableRecord
100
AcDbLayerTableRecord
  2
0
 70
     0
 62
     7
  6
Continuous
370
    -3
390
F
  0
LAYER
  5
73
330
2
100
AcDbSymbolTableRecord
100
AcDbLayerTableRecord
  2
FORMAT
 70
     0
 62
     7
  6
Continuous
370
    -3
390
F
  0
LAYER
  5
74
330
2
100
AcDbSymbolTableRecord
100
AcDbLayerTableRecord
  2
YARDIMCI_GEOMETRI
 70
     0
 62
    -6
  6
Continuous
290
     0
370
    -3
390
F
  0
LAYER
  5
75
330
2
100
AcDbSymbolTableRecord
100
AcDbLayerTableRecord
  2
SAYFA_CERCEVESI
 70
     0
 62
     7
  6
Continuous
370
    25
390
F
  0
LAYER
  5
76
330
2
100
AcDbSymbolTableRecord
100
AcDbLayerTableRecord
  2
ANTET
 70
     0
 62
     7
  6
Continuous
370
    -3
390
F
  0
LAYER
  5
77
330
2
100
AcDbSymbolTableRecord
100
AcDbLayerTableRecord
  2
OLCU
 70
     0
 62
   150
  6
Continuous
370
    -3
390
F
  0
LAYER
  5
78
330
2
100
AcDbSymbolTableRecord
100
AcDbLayerTableRecord
  2
METIN
 70
     0
 62
    96
  6
Continuous
370
    -3
390
F
  0
LAYER
  5
79
330
2
100
AcDbSymbolTableRecord
100
AcDbLayerTableRecord
  2
BALON
 70
     0
 62
     5
  6
Continuous
370
    -3
390
F
  0
LAYER
  5
7A
330
2
100
AcDbSymbolTableRecord
100
AcDbLayerTableRecord
  2
VURGU
 70
     0
 62
     7
  6
Continuous
370
    -3
390
F
  0
LAYER
  5
7B
330
2
100
AcDbSymbolTableRecord
100
AcDbLayerTableRecord
  2
SILIK
 70
     0
 62
     7
  6
Continuous
370
    -3
390
F
  0
LAYER
  5
7C
330
2
100
AcDbSymbolTableRecord
100
AcDbLayerTableRecord
  2
MODEL
 70
     0
 62
     7
  6
Continuous
370
    -3
390
F
  0
LAYER
  5
7D
330
2
100
AcDbSymbolTableRecord
100
AcDbLayerTableRecord
  2
DETAYLANDıRMA
 70
     0
 62
   190
  6
Continuous
370
    -3
390
F
  0
LAYER
  5
7E
330
2
100
AcDbSymbolTableRecord
100
AcDbLayerTableRecord
  2
TOLERANS
 70
     0
 62
   230
  6
Continuous
370
    -3
390
F
  0
LAYER
  5
7F
330
2
100
AcDbSymbolTableRecord
100
AcDbLayerTableRecord
  2
MERKEZ_CIZGILERI
 70
     0
 62
    30
  6
Continuous
370
    -3
390
F
  0
LAYER
  5
80
330
2
100
AcDbSymbolTableRecord
100
AcDbLayerTableRecord
  2
KESIT-DETAY_CIZGILERI
 70
     0
 62
     7
  6
Continuous
370
    -3
390
F
  0
LAYER
  5
81
330
2
100
AcDbSymbolTableRecord
100
AcDbLayerTableRecord
  2
\U+041E\U+0421\U+0415\U+0412\U+042B\U+0415
 70
     0
 62
     7
  6
Continuous
370
    -3
390
F
  0
LAYER
  5
82
330
2
100
AcDbSymbolTableRecord
100
AcDbLayerTableRecord
  2
\U+0412\U+041E\U+0414\U+042F\U+041D\U+042B\U+0415_\U+0417\U+041D\U+0410\U+041A\U+0418
 70
     0
 62
    11
  6
Continuous
370
    -3
390
F
  0
ENDTAB
  0
TABLE
  2
STYLE
  5
3
330
0
100
AcDbSymbolTable
 70
     1
  0
STYLE
  5
11
330
3
100
AcDbSymbolTableRecord
100
AcDbTextStyleTableRecord
  2
Standard
 70
     0
 40
0.0
 41
1.0
 50
0.0
 71
     0
 42
3.5
  3
txt
  4

  0
ENDTAB
  0
TABLE
  2
VIEW
  5
6
330
0
100
AcDbSymbolTable
 70
     0
  0
ENDTAB
  0
TABLE
  2
UCS
  5
7
330
0
100
AcDbSymbolTable
 70
     0
  0
ENDTAB
  0
TABLE
  2
APPID
  5
9
330
0
100
AcDbSymbolTable
 70
     1
  0
APPID
  5
12
330
9
100
AcDbSymbolTableRecord
100
AcDbRegAppTableRecord
  2
ACAD
 70
     0
  0
ENDTAB
  0
TABLE
  2
DIMSTYLE
  5
A
330
0
100
AcDbSymbolTable
 70
     1
100
AcDbDimStyleTable
  0
DIMSTYLE
105
27
330
A
100
AcDbSymbolTableRecord
100
AcDbDimStyleTableRecord
  2
ISO-25
 70
     0
 41
2.5
 42
0.625
 43
3.75
 44
1.25
 73
     0
 74
     0
 77
     1
 78
     8
140
2.5
141
2.5
143
0.0393700787
147
0.625
171
     3
172
     1
178
     0
271
     2
272
     2
274
     3
278
    44
283
     0
284
     8
340
11
  0
ENDTAB
  0
TABLE
  2
BLOCK_RECORD
  5
1
330
0
100
AcDbSymbolTable
 70
     3
  0
BLOCK_RECORD
  5
1F
330
1
100
AcDbSymbolTableRecord
100
AcDbBlockTableRecord
  2
*Model_Space
340
22
  0
BLOCK_RECORD
  5
1B
330
1
100
AcDbSymbolTableRecord
100
AcDbBlockTableRecord
  2
*Paper_Space
340
1E
  0
BLOCK_RECORD
  5
23
330
1
100
AcDbSymbolTableRecord
100
AcDbBlockTableRecord
  2
*Paper_Space0
340
26
  0
BLOCK_RECORD
  5
93
330
1
100
AcDbSymbolTableRecord
100
AcDbBlockTableRecord
  2
SW_CENTERMARKSYMBOL_0
340
0
102
{BLKREFS
331
9E
102
}
  0
BLOCK_RECORD
  5
A5
330
1
100
AcDbSymbolTableRecord
100
AcDbBlockTableRecord
  2
SW_CENTERMARKSYMBOL_1
340
0
102
{BLKREFS
331
B0
102
}
  0
ENDTAB
  0
ENDSEC
  0
SECTION
  2
BLOCKS
  0
BLOCK
  5
20
330
1F
100
AcDbEntity
  8
0
100
AcDbBlockBegin
  2
*Model_Space
 70
     0
 10
0.0
 20
0.0
 30
0.0
  3
*Model_Space
  1

  0
ENDBLK
  5
21
330
1F
100
AcDbEntity
  8
0
100
AcDbBlockEnd
  0
BLOCK
  5
1C
330
1B
100
AcDbEntity
 67
     1
  8
0
100
AcDbBlockBegin
  2
*Paper_Space
 70
     0
 10
0.0
 20
0.0
 30
0.0
  3
*Paper_Space
  1

  0
ENDBLK
  5
1D
330
1B
100
AcDbEntity
 67
     1
  8
0
100
AcDbBlockEnd
  0
BLOCK
  5
24
330
23
100
AcDbEntity
  8
0
100
AcDbBlockBegin
  2
*Paper_Space0
 70
     0
 10
0.0
 20
0.0
 30
0.0
  3
*Paper_Space0
  1

  0
ENDBLK
  5
25
330
23
100
AcDbEntity
  8
0
100
AcDbBlockEnd
  0
BLOCK
  5
94
330
93
100
AcDbEntity
  8
0
100
AcDbBlockBegin
  2
SW_CENTERMARKSYMBOL_0
 70
     0
 10
0.0
 20
0.0
 30
0.0
  3
SW_CENTERMARKSYMBOL_0
  1

  0
LINE
  5
96
330
93
100
AcDbEntity
  8
FORMAT
 62
     0
100
AcDbLine
 10
0.0
 20
0.0
 30
0.0
 11
0.0
 21
2.5
 31
0.0
  0
LINE
  5
97
330
93
100
AcDbEntity
  8
FORMAT
 62
     0
100
AcDbLine
 10
0.0
 20
0.0
 30
0.0
 11
-2.5
 21
0.0
 31
0.0
  0
LINE
  5
98
330
93
100
AcDbEntity
  8
FORMAT
 62
     0
100
AcDbLine
 10
0.0
 20
0.0
 30
0.0
 11
0.0
 21
-2.5
 31
0.0
  0
LINE
  5
99
330
93
100
AcDbEntity
  8
FORMAT
 62
     0
100
AcDbLine
 10
0.0
 20
0.0
 30
0.0
 11
2.5
 21
0.0
 31
0.0
  0
LINE
  5
9A
330
93
100
AcDbEntity
  8
FORMAT
 62
     0
100
AcDbLine
 10
0.0
 20
5.0
 30
0.0
 11
0.0
 21
65.0
 31
0.0
  0
LINE
  5
9B
330
93
100
AcDbEntity
  8
FORMAT
 62
     0
100
AcDbLine
 10
-5.0
 20
0.0
 30
0.0
 11
-65.0
 21
0.0
 31
0.0
  0
LINE
  5
9C
330
93
100
AcDbEntity
  8
FORMAT
 62
     0
100
AcDbLine
 10
0.0
 20
-5.0
 30
0.0
 11
0.0
 21
-66.4025336374
 31
0.0
  0
LINE
  5
9D
330
93
100
AcDbEntity
  8
FORMAT
 62
     0
100
AcDbLine
 10
5.0
 20
0.0
 30
0.0
 11
65.0
 21
0.0
 31
0.0
  0
ENDBLK
  5
95
330
93
100
AcDbEntity
  8
0
100
AcDbBlockEnd
  0
BLOCK
  5
A6
330
A5
100
AcDbEntity
  8
0
100
AcDbBlockBegin
  2
SW_CENTERMARKSYMBOL_1
 70
     0
 10
0.0
 20
0.0
 30
0.0
  3
SW_CENTERMARKSYMBOL_1
  1

  0
LINE
  5
A8
330
A5
100
AcDbEntity
  8
FORMAT
 62
     0
100
AcDbLine
 10
0.0
 20
0.0
 30
0.0
 11
0.0
 21
2.5
 31
0.0
  0
LINE
  5
A9
330
A5
100
AcDbEntity
  8
FORMAT
 62
     0
100
AcDbLine
 10
0.0
 20
0.0
 30
0.0
 11
-2.5
 21
0.0
 31
0.0
  0
LINE
  5
AA
330
A5
100
AcDbEntity
  8
FORMAT
 62
     0
100
AcDbLine
 10
0.0
 20
0.0
 30
0.0
 11
0.0
 21
-2.5
 31
0.0
  0
LINE
  5
AB
330
A5
100
AcDbEntity
  8
FORMAT
 62
     0
100
AcDbLine
 10
0.0
 20
0.0
 30
0.0
 11
2.5
 21
0.0
 31
0.0
  0
LINE
  5
AC
330
A5
100
AcDbEntity
  8
FORMAT
 62
     0
100
AcDbLine
 10
0.0
 20
5.0
 30
0.0
 11
0.0
 21
65.0
 31
0.0
  0
LINE
  5
AD
330
A5
100
AcDbEntity
  8
FORMAT
 62
     0
100
AcDbLine
 10
-5.0
 20
0.0
 30
0.0
 11
-65.0
 21
0.0
 31
0.0
  0
LINE
  5
AE
330
A5
100
AcDbEntity
  8
FORMAT
 62
     0
100
AcDbLine
 10
0.0
 20
-5.0
 30
0.0
 11
0.0
 21
-65.0
 31
0.0
  0
LINE
  5
AF
330
A5
100
AcDbEntity
  8
FORMAT
 62
     0
100
AcDbLine
 10
5.0
 20
0.0
 30
0.0
 11
65.0
 21
0.0
 31
0.0
  0
ENDBLK
  5
A7
330
A5
100
AcDbEntity
  8
0
100
AcDbBlockEnd
  0
ENDSEC
  0
SECTION
  2
ENTITIES
  0
LINE
  5
83
330
1F
100
AcDbEntity
  8
0
  6
Continuous
 62
     7
370
    25
100
AcDbLine
 10
72.8270630973
 20
247.4243230907
 30
0.0
 11
72.8270630973
 21
51.5557564584
 31
0.0
  0
LINE
  5
84
330
1F
100
AcDbEntity
  8
0
  6
Continuous
 62
     7
370
    25
100
AcDbLine
 10
197.8270630973
 20
51.5557564584
 30
0.0
 11
197.8270630973
 21
247.4243230907
 31
0.0
  0
LINE
  5
85
330
1F
100
AcDbEntity
  8
0
  6
Continuous
 62
     7
370
    25
100
AcDbLine
 10
197.8270630973
 20
247.4243230907
 30
0.0
 11
197.8270630973
 21
328.5557515708
 31
0.0
  0
LINE
  5
86
330
1F
100
AcDbEntity
  8
0
  6
Continuous
 62
     7
370
    25
100
AcDbLine
 10
197.8270630973
 20
-83.444248906
 30
0.0
 11
197.8270630973
 21
51.5557564584
 31
0.0
  0
LINE
  5
87
330
1F
100
AcDbEntity
  8
0
  6
Continuous
 62
     7
370
    25
100
AcDbLine
 10
72.8270630973
 20
51.5557564584
 30
0.0
 11
72.8270630973
 21
-83.444248906
 31
0.0
  0
LINE
  5
88
330
1F
100
AcDbEntity
  8
0
  6
Continuous
 62
     7
370
    25
100
AcDbLine
 10
72.8270630973
 20
328.5557515708
 30
0.0
 11
72.8270630973
 21
247.4243230907
 31
0.0
  0
LWPOLYLINE
  5
89
330
1F
100
AcDbEntity
  8
0
  6
Continuous
 62
     7
370
    25
100
AcDbPolyline
 90
       76
 70
   128
 43
0.0
 10
135.3270630973
 20
283.5574932185
 10
131.0511255326
 20
283.4307737438
 10
126.8051802801
 20
283.0514795867
 10
122.6190101045
 20
282.4222929565
 10
118.5219768124
 20
281.5476245967
 10
114.5428210186
 20
280.4336137859
 10
110.7094507354
 20
279.0880687324
 10
107.048755108
 20
277.5204069701
 10
103.5864125626
 20
275.7416553584
 10
100.346706404
 20
273.764271268
 10
97.3523627656
 20
271.6021425811
 10
94.6243848341
 20
269.2704088775
 10
92.1819057005
 20
266.7854316322
 10
90.0420617001
 20
264.164675006
 10
88.2198545771
 20
261.4264972297
 10
86.7280732529
 20
258.5900909988
 10
85.5771820681
 20
255.6753642646
 10
84.7752462762
 20
252.7027614204
 10
84.327898516
 20
249.6931440917
 10
84.2382717567
 20
246.6676123229
 10
84.5069955724
 20
243.6473853675
 10
85.1321849661
 20
240.6536526767
 10
86.1094552713
 20
237.7073950855
 10
87.4319519537
 20
234.8293252078
 10
89.0903990405
 20
232.0395894138
 10
91.0731661754
 20
229.3577380267
 10
93.3663393991
 20
226.8026359168
 10
95.9538366335
 20
224.3921942798
 10
98.8175082641
 20
222.1432812301
 10
101.937271251
 20
220.0717218009
 10
105.2912357884
 20
218.191999921
 10
108.8558822559
 20
216.517318019
 10
112.6062046426
 20
215.0594480125
 10
116.5158986734
 20
213.8285822955
 10
120.5575378301
 20
212.8333635417
 10
124.7027754473
 20
212.0807654945
 10
128.9225347029
 20
211.5760929672
 10
133.1872172343
 20
211.3228626338
 10
137.4669089603
 20
211.3228626338
 10
141.7315914916
 20
211.5760929672
 10
145.9513507473
 20
212.0807654945
 10
150.0965883645
 20
212.8333635417
 10
154.1382275211
 20
213.8285822955
 10
158.047921552
 20
215.0594480125
 10
161.7982439386
 20
216.517318019
 10
165.3628904062
 20
218.191999921
 10
168.7168549435
 20
220.0717218009
 10
171.8366179304
 20
222.1432812301
 10
174.7002895611
 20
224.3921942798
 10
177.2877867954
 20
226.8026359168
 10
179.5809600191
 20
229.3577380267
 10
181.563727154
 20
232.0395894138
 10
183.2221742409
 20
234.8293252078
 10
184.5446709233
 20
237.7073950855
 10
185.5219412284
 20
240.6536526767
 10
186.1471306222
 20
243.6473853675
 10
186.4158544379
 20
246.6676123229
 10
186.3262276786
 20
249.6931440917
 10
185.8788799184
 20
252.7027614204
 10
185.0769441264
 20
255.6753642646
 10
183.9260529416
 20
258.5900909988
 10
182.4342716174
 20
261.4264972297
 10
180.6120644944
 20
264.164675006
 10
178.4722204941
 20
266.7854316322
 10
176.0297413605
 20
269.2704088775
 10
173.301763429
 20
271.6021425811
 10
170.3074197905
 20
273.764271268
 10
167.0677136319
 20
275.7416553584
 10
163.6053710865
 20
277.5204069701
 10
159.9446754592
 20
279.0880687324
 10
156.1113051759
 20
280.4336137859
 10
152.1321493821
 20
281.5476245967
 10
148.0351160901
 20
282.4222929565
 10
143.8489459144
 20
283.0514795867
 10
139.6030006619
 20
283.4307737438
 10
135.3270630973
 20
283.5574932185
  0
LWPOLYLINE
  5
8A
330
1F
100
AcDbEntity
  8
0
  6
Continuous
 62
     7
370
    25
100
AcDbPolyline
 90
       84
 70
   128
 43
0.0
 10
135.3270630973
 20
291.6185147849
 10
130.6002666863
 20
291.4919443218
 10
125.9005447539
 20
291.1129481879
 10
121.2548171791
 20
290.4837317554
 10
116.6896927791
 20
289.6078415004
 10
112.2313230919
 20
288.4903438178
 10
107.9052440511
 20
287.137646207
 10
103.7362325626
 20
285.557437667
 10
99.7481751876
 20
283.7588377086
 10
95.9639060932
 20
281.7520983306
 10
92.4051064687
 20
279.5487530319
 10
89.0921611028
 20
277.1613783923
 10
86.0440428989
 20
274.6036834804
 10
83.278216018
 20
271.8903012363
 10
80.8105166691
 20
269.0367884723
 10
78.6550860541
 20
266.0594768611
 10
76.8242660599
 20
262.9754133312
 10
75.3285471039
 20
259.8023004619
 10
74.1764936285
 20
256.5582580653
 10
73.3747031229
 20
253.261912593
 10
72.9277688699
 20
249.932128915
 10
72.8382538693
 20
246.5879805175
 10
73.1066722112
 20
243.248630294
 10
73.7314779001
 20
239.9332113353
 10
74.7091021078
 20
236.6606779186
 10
76.0339382725
 20
233.4498055068
 10
77.6984017032
 20
230.3189523307
 10
79.6929556566
 20
227.2861189929
 10
82.0061746674
 20
224.3685908405
 10
84.6248153286
 20
221.5831763831
 10
87.5338684457
 20
218.9457304565
 10
90.7166819709
 20
216.4714224426
 10
94.1550168829
 20
214.1744084445
 10
97.8291812973
 20
212.0678610889
 10
101.7181310492
 20
210.1638205138
 10
105.7995907652
 20
208.4732241718
 10
110.0501786607
 20
207.0056982127
 10
114.4455518263
 20
205.7697362987
 10
118.9605328875
 20
204.772312173
 10
123.5692590164
 20
204.0192372886
 10
128.2453332717
 20
203.5147733775
 10
132.961970816
 20
203.2618112651
 10
137.6921553785
 20
203.2618112651
 10
142.4087929229
 20
203.5147733775
 10
147.0848671781
 20
204.0192372886
 10
151.6935933071
 20
204.772312173
 10
156.2085743683
 20
205.7697362987
 10
160.6039475339
 20
207.0056982127
 10
164.8545354294
 20
208.4732241718
 10
168.9359951454
 20
210.1638205138
 10
172.8249448972
 20
212.0678610889
 10
176.4991093116
 20
214.1744084445
 10
179.9374442237
 20
216.4714224426
 10
183.1202577489
 20
218.9457304565
 10
186.0293108659
 20
221.5831763831
 10
188.6479515272
 20
224.3685908405
 10
190.961170538
 20
227.2861189929
 10
192.9557244914
 20
230.3189523307
 10
194.620187922
 20
233.4498055068
 10
195.9450240867
 20
236.6606779186
 10
196.9226482945
 20
239.9332113353
 10
197.5474539833
 20
243.248630294
 10
197.8158723252
 20
246.5879805175
 10
197.7263573246
 20
249.932128915
 10
197.2794230717
 20
253.261912593
 10
196.477632566
 20
256.5582580653
 10
195.3255790906
 20
259.8023004619
 10
193.8298601346
 20
262.9754133312
 10
191.9990401404
 20
266.0594768611
 10
189.8436095255
 20
269.0367884723
 10
187.3759101765
 20
271.8903012363
 10
184.6100832956
 20
274.6036834804
 10
181.5619650917
 20
277.1613783923
 10
178.2490197258
 20
279.5487530319
 10
174.6902201014
 20
281.7520983306
 10
170.9059510069
 20
283.7588377086
 10
166.917893632
 20
285.557437667
 10
162.7488821434
 20
287.137646207
 10
158.4228031026
 20
288.4903438178
 10
153.9644334154
 20
289.6078415004
 10
149.3993090155
 20
290.4837317554
 10
144.7535814407
 20
291.1129481879
 10
140.0538595082
 20
291.4919443218
 10
135.3270630973
 20
291.6185147849
  0
ELLIPSE
  5
8B
330
1F
100
AcDbEntity
  8
0
  6
Continuous
 62
     7
370
    25
100
AcDbEllipse
 10
135.3270630973
 20
51.555751094
 30
0.0
 11
62.49999999999997
 21
0.0
 31
0.0
210
0.0
220
0.0
230
1.0
 40
0.4142135624
 41
3.141592653589828
 42
6.283185307179586
  0
LINE
  5
8C
330
1F
100
AcDbEntity
  8
0
  6
Continuous
 62
     7
370
    25
100
AcDbLine
 10
72.8270630973
 20
-83.444248906
 30
0.0
 11
197.8270630973
 21
-83.444248906
 31
0.0
  0
LINE
  5
8D
330
1F
100
AcDbEntity
  8
0
  6
Continuous
 62
     7
370
    25
100
AcDbLine
 10
72.8270630973
 20
328.5557515708
 30
0.0
 11
197.8270630973
 21
328.5557515708
 31
0.0
  0
LINE
  5
8E
330
1F
100
AcDbEntity
  8
0
  6
Continuous
 62
     7
370
    25
100
AcDbLine
 10
72.8270630973
 20
-239.7178129948
 30
0.0
 11
72.8270630973
 21
-435.5863945283
 31
0.0
  0
LINE
  5
8F
330
1F
100
AcDbEntity
  8
0
  6
Continuous
 62
     7
370
    25
100
AcDbLine
 10
197.8270630973
 20
-435.5863945283
 30
0.0
 11
197.8270630973
 21
-239.7178129948
 31
0.0
  0
CIRCLE
  5
90
330
1F
100
AcDbEntity
  8
0
  6
Continuous
 62
     7
370
    25
100
AcDbCircle
 10
135.3270630973
 20
-435.5863945283
 30
0.0
 40
51.09999999999999
  0
CIRCLE
  5
91
330
1F
100
AcDbEntity
  8
0
  6
Continuous
 62
     7
370
    25
100
AcDbCircle
 10
135.3270630973
 20
-435.5863945283
 30
0.0
 40
62.49999999999999
  0
LWPOLYLINE
  5
92
330
1F
100
AcDbEntity
  8
0
  6
Continuous
 62
     7
370
    25
100
AcDbPolyline
 90
       44
 70
   128
 43
0.0
 10
72.8270630973
 20
-239.7178129948
 10
72.8382538693
 20
-238.8814853228
 10
73.1066722112
 20
-235.5421201981
 10
73.7314779001
 20
-232.2266863383
 10
74.7091021078
 20
-228.9541529215
 10
76.0339382725
 20
-225.7432805098
 10
77.6984017032
 20
-222.6124422349
 10
79.6929556566
 20
-219.5795939959
 10
82.0061746674
 20
-216.6620956458
 10
84.6248153286
 20
-213.8766513861
 10
87.5338684457
 20
-211.2392203606
 10
90.7166819709
 20
-208.7649123467
 10
94.1550168829
 20
-206.4679132498
 10
97.8291812973
 20
-204.361350993
 10
101.7181310492
 20
-202.457310418
 10
105.7995907652
 20
-200.7666991747
 10
110.0501786607
 20
-199.2992030181
 10
114.4455518263
 20
-198.0632113017
 10
118.9605328875
 20
-197.0658169783
 10
123.5692590164
 20
-196.3127271927
 10
128.2453332717
 20
-195.8082483805
 10
132.961970816
 20
-195.5553011693
 10
137.6921553785
 20
-195.5553011693
 10
142.4087929229
 20
-195.8082483805
 10
147.0848671781
 20
-196.3127271927
 10
151.6935933071
 20
-197.0658169783
 10
156.2085743683
 20
-198.0632113017
 10
160.6039475339
 20
-199.2992030181
 10
164.8545354294
 20
-200.7666991747
 10
168.9359951454
 20
-202.457310418
 10
172.8249448972
 20
-204.361350993
 10
176.4991093116
 20
-206.4679132498
 10
179.9374442237
 20
-208.7649123467
 10
183.1202577489
 20
-211.2392203606
 10
186.0293108659
 20
-213.8766513861
 10
188.6479515272
 20
-216.6620956458
 10
190.961170538
 20
-219.5795939959
 10
192.9557244914
 20
-222.6124422349
 10
194.620187922
 20
-225.7432805098
 10
195.9450240867
 20
-228.9541529215
 10
196.9226482945
 20
-232.2266863383
 10
197.5474539833
 20
-235.5421201981
 10
197.8158723252
 20
-238.8814853228
 10
197.8270630973
 20
-239.7178129948
  0
INSERT
  5
9E
330
1F
100
AcDbEntity
  8
FORMAT
100
AcDbBlockReference
  2
SW_CENTERMARKSYMBOL_0
 10
135.3270630973
 20
-435.5863945283
 30
0.0
  0
LINE
  5
9F
330
1F
100
AcDbEntity
  8
0
  6
Continuous
 62
     7
370
    25
100
AcDbLine
 10
197.8270630973
 20
461.2792098631
 30
0.0
 11
197.8270630973
 21
657.1477913966
 31
0.0
  0
LINE
  5
A0
330
1F
100
AcDbEntity
  8
0
  6
Continuous
 62
     7
370
    25
100
AcDbLine
 10
72.8270630973
 20
657.1477913966
 30
0.0
 11
72.8270630973
 21
461.2792098631
 31
0.0
  0
CIRCLE
  5
A1
330
1F
100
AcDbEntity
  8
0
  6
Continuous
 62
     7
370
    25
100
AcDbCircle
 10
135.3270630973
 20
657.1477913966
 30
0.0
 40
51.09999999999999
  0
CIRCLE
  5
A2
330
1F
100
AcDbEntity
  8
0
  6
Continuous
 62
     7
370
    25
100
AcDbCircle
 10
135.3270630973
 20
657.1477913966
 30
0.0
 40
62.49999999999999
  0
LWPOLYLINE
  5
A3
330
1F
100
AcDbEntity
  8
0
  6
Continuous
 62
     7
370
    25
100
AcDbPolyline
 90
       84
 70
   128
 43
0.0
 10
135.3270630973
 20
505.4733866562
 10
130.6002666863
 20
505.3468161931
 10
125.9005447539
 20
504.9678349604
 10
121.2548171791
 20
504.3386036267
 10
116.6896927791
 20
503.4627282729
 10
112.2313230919
 20
502.3452305903
 10
107.9052440511
 20
500.9925180783
 10
103.7362325626
 20
499.4123393406
 10
99.7481751876
 20
497.6137244811
 10
95.9639060932
 20
495.6069851031
 10
92.4051064687
 20
493.4036249032
 10
89.0921611028
 20
491.0162651648
 10
86.0440428989
 20
488.4585553517
 10
83.278216018
 20
485.7451880087
 10
80.8105166691
 20
482.8916603436
 10
78.6550860541
 20
479.9143487324
 10
76.8242660599
 20
476.8303001036
 10
75.3285471039
 20
473.6571723332
 10
74.1764936285
 20
470.4131448378
 10
73.3747031229
 20
467.1167993655
 10
72.9277688699
 20
463.7870305886
 10
72.8382538693
 20
460.4428821911
 10
73.1066722112
 20
457.1035170664
 10
73.7314779001
 20
453.7880832066
 10
74.7091021078
 20
450.5155497899
 10
76.0339382725
 20
447.3046773781
 10
77.6984017032
 20
444.1738391032
 10
79.6929556566
 20
441.1409908642
 10
82.0061746674
 20
438.2234925141
 10
84.6248153286
 20
435.4380482545
 10
87.5338684457
 20
432.8006172289
 10
90.7166819709
 20
430.326309215
 10
94.1550168829
 20
428.0293101182
 10
97.8291812973
 20
425.9227478613
 10
101.7181310492
 20
424.0187072863
 10
105.7995907652
 20
422.3280960431
 10
110.0501786607
 20
420.8605998864
 10
114.4455518263
 20
419.62460817
 10
118.9605328875
 20
418.6272138466
 10
123.5692590164
 20
417.8741240611
 10
128.2453332717
 20
417.3696452489
 10
132.961970816
 20
417.1166980376
 10
137.6921553785
 20
417.1166980376
 10
142.4087929229
 20
417.3696452489
 10
147.0848671781
 20
417.8741240611
 10
151.6935933071
 20
418.6272138466
 10
156.2085743683
 20
419.62460817
 10
160.6039475339
 20
420.8605998864
 10
164.8545354294
 20
422.3280960431
 10
168.9359951454
 20
424.0187072863
 10
172.8249448972
 20
425.9227478613
 10
176.4991093116
 20
428.0293101182
 10
179.9374442237
 20
430.326309215
 10
183.1202577489
 20
432.8006172289
 10
186.0293108659
 20
435.4380482545
 10
188.6479515272
 20
438.2234925141
 10
190.961170538
 20
441.1409908642
 10
192.9557244914
 20
444.1738391032
 10
194.620187922
 20
447.3046773781
 10
195.9450240867
 20
450.5155497899
 10
196.9226482945
 20
453.7880832066
 10
197.5474539833
 20
457.1035170664
 10
197.8158723252
 20
460.4428821911
 10
197.7263573246
 20
463.7870305886
 10
197.2794230717
 20
467.1167993655
 10
196.477632566
 20
470.4131448378
 10
195.3255790906
 20
473.6571723332
 10
193.8298601346
 20
476.8303001036
 10
191.9990401404
 20
479.9143487324
 10
189.8436095255
 20
482.8916603436
 10
187.3759101765
 20
485.7451880087
 10
184.6100832956
 20
488.4585553517
 10
181.5619650917
 20
491.0162651648
 10
178.2490197258
 20
493.4036249032
 10
174.6902201014
 20
495.6069851031
 10
170.9059510069
 20
497.6137244811
 10
166.917893632
 20
499.4123393406
 10
162.7488821434
 20
500.9925180783
 10
158.4228031026
 20
502.3452305903
 10
153.9644334154
 20
503.4627282729
 10
149.3993090155
 20
504.3386036267
 10
144.7535814407
 20
504.9678349604
 10
140.0538595082
 20
505.3468161931
 10
135.3270630973
 20
505.4733866562
  0
LWPOLYLINE
  5
A4
330
1F
100
AcDbEntity
  8
0
  6
Continuous
 62
     7
370
    25
100
AcDbPolyline
 90
       76
 70
   128
 43
0.0
 10
135.3270630973
 20
497.4123650899
 10
131.0511255326
 20
497.2856456151
 10
126.8051802801
 20
496.9063663592
 10
122.6190101045
 20
496.2771797289
 10
118.5219768124
 20
495.4025113692
 10
114.5428210186
 20
494.2885005583
 10
110.7094507354
 20
492.9429406037
 10
107.048755108
 20
491.3752937426
 10
103.5864125626
 20
489.5965272297
 10
100.346706404
 20
487.6191431393
 10
97.3523627656
 20
485.4570144524
 10
94.6243848341
 20
483.1252807488
 10
92.1819057005
 20
480.6403333058
 10
90.0420617001
 20
478.0195617785
 10
88.2198545771
 20
475.281369101
 10
86.7280732529
 20
472.4449777712
 10
85.5771820681
 20
469.5302510371
 10
84.7752462762
 20
466.5576481928
 10
84.327898516
 20
463.5480308642
 10
84.2382717567
 20
460.5224990954
 10
84.5069955724
 20
457.50227214
 10
85.1321849661
 20
454.5085394492
 10
86.1094552713
 20
451.5622967591
 10
87.4319519537
 20
448.6842119803
 10
89.0903990405
 20
445.8944612851
 10
91.0731661754
 20
443.2126397004
 10
93.3663393991
 20
440.6575375905
 10
95.9538366335
 20
438.2470661511
 10
98.8175082641
 20
435.9981680026
 10
101.937271251
 20
433.9265936722
 10
105.2912357884
 20
432.0468717923
 10
108.8558822559
 20
430.3722047915
 10
112.6062046426
 20
428.9143198838
 10
116.5158986734
 20
427.6834541669
 10
120.5575378301
 20
426.688235413
 10
124.7027754473
 20
425.9356522669
 10
128.9225347029
 20
425.4309797396
 10
133.1872172343
 20
425.1777494063
 10
137.4669089603
 20
425.1777494063
 10
141.7315914916
 20
425.4309797396
 10
145.9513507473
 20
425.9356522669
 10
150.0965883645
 20
426.688235413
 10
154.1382275211
 20
427.6834541669
 10
158.047921552
 20
428.9143198838
 10
161.7982439386
 20
430.3722047915
 10
165.3628904062
 20
432.0468717923
 10
168.7168549435
 20
433.9265936722
 10
171.8366179304
 20
435.9981680026
 10
174.7002895611
 20
438.2470661511
 10
177.2877867954
 20
440.6575375905
 10
179.5809600191
 20
443.2126397004
 10
181.563727154
 20
445.8944612851
 10
183.2221742409
 20
448.6842119803
 10
184.5446709233
 20
451.5622967591
 10
185.5219412284
 20
454.5085394492
 10
186.1471306222
 20
457.50227214
 10
186.4158544379
 20
460.5224990954
 10
186.3262276786
 20
463.5480308642
 10
185.8788799184
 20
466.5576481928
 10
185.0769441264
 20
469.5302510371
 10
183.9260529416
 20
472.4449777712
 10
182.4342716174
 20
475.281369101
 10
180.6120644944
 20
478.0195617785
 10
178.4722204941
 20
480.6403333058
 10
176.0297413605
 20
483.1252807488
 10
173.301763429
 20
485.4570144524
 10
170.3074197905
 20
487.6191431393
 10
167.0677136319
 20
489.5965272297
 10
163.6053710865
 20
491.3752937426
 10
159.9446754592
 20
492.9429406037
 10
156.1113051759
 20
494.2885005583
 10
152.1321493821
 20
495.4025113692
 10
148.0351160901
 20
496.2771797289
 10
143.8489459144
 20
496.9063663592
 10
139.6030006619
 20
497.2856456151
 10
135.3270630973
 20
497.4123650899
  0
INSERT
  5
B0
330
1F
100
AcDbEntity
  8
FORMAT
100
AcDbBlockReference
  2
SW_CENTERMARKSYMBOL_1
 10
135.3270630973
 20
657.1477913966
 30
0.0
  0
LINE
  5
B1
330
1F
100
AcDbEntity
  8
0
  6
Continuous
 62
     7
370
    25
100
AcDbLine
 10
540.7107059491
 20
202.4440951434
 30
0.0
 11
540.7107059491
 21
328.5557515708
 31
0.0
  0
LINE
  5
B2
330
1F
100
AcDbEntity
  8
0
  6
Continuous
 62
     7
370
    25
100
AcDbLine
 10
540.7107059491
 20
-83.444248906
 30
0.0
 11
540.7107059491
 21
25.6674028722
 31
0.0
  0
LINE
  5
B3
330
1F
100
AcDbEntity
  8
0
  6
Continuous
 62
     7
370
    25
100
AcDbLine
 10
415.7107059491
 20
328.5557515708
 30
0.0
 11
415.7107059491
 21
-83.444248906
 31
0.0
  0
LINE
  5
B4
330
1F
100
AcDbEntity
  8
0
  6
Continuous
 62
     7
370
    25
100
AcDbLine
 10
629.8851106894
 20
291.6185147849
 30
0.0
 11
540.7107059491
 21
202.4440951434
 31
0.0
  0
LINE
  5
B5
330
1F
100
AcDbEntity
  8
0
  6
Continuous
 62
     7
370
    25
100
AcDbLine
 10
540.7107059491
 20
25.6674028722
 30
0.0
 11
718.2734642756
 21
203.2301611987
 31
0.0
  0
LINE
  5
B6
330
1F
100
AcDbEntity
  8
0
  6
Continuous
 62
     7
370
    25
100
AcDbLine
 10
478.2107059491
 20
-83.444248906
 30
0.0
 11
540.7107059491
 21
-83.444248906
 31
0.0
  0
LINE
  5
B7
330
1F
100
AcDbEntity
  8
0
  6
Continuous
 62
     7
370
    25
100
AcDbLine
 10
415.7107059491
 20
-83.444248906
 30
0.0
 11
478.2107059491
 21
-83.444248906
 31
0.0
  0
LINE
  5
B8
330
1F
100
AcDbEntity
  8
0
  6
Continuous
 62
     7
370
    25
100
AcDbLine
 10
478.2107059491
 20
328.5557515708
 30
0.0
 11
540.7107059491
 21
328.5557515708
 31
0.0
  0
LINE
  5
B9
330
1F
100
AcDbEntity
  8
0
  6
Continuous
 62
     7
370
    25
100
AcDbLine
 10
415.7107059491
 20
328.5557515708
 30
0.0
 11
478.2107059491
 21
328.5557515708
 31
0.0
  0
LWPOLYLINE
  5
BA
330
1F
100
AcDbEntity
  8
0
  6
Continuous
 62
     7
370
    25
100
AcDbPolyline
 90
       35
 70
   128
 43
0.0
 10
478.2107059491
 20
51.5557564584
 10
481.1402223186
 20
58.6282349912
 10
484.0632990581
 20
65.6851567117
 10
486.9735107404
 20
72.7110393134
 10
489.8644589466
 20
79.6904004899
 10
492.7297911254
 20
86.6079218475
 10
495.5632068795
 20
93.4483893005
 10
498.3584765923
 20
100.1967675773
 10
501.1094581914
 20
106.8382300226
 10
503.810103668
 20
113.3581585971
 10
506.4544749093
 20
119.7422481862
 10
509.0367623252
 20
125.9764320937
 10
511.5512867105
 20
132.0470310537
 10
513.9925178719
 20
137.9406936256
 10
516.3550969791
 20
143.6444557992
 10
518.6338272524
 20
149.1458005992
 10
520.8236944509
 20
154.4326133815
 10
522.9198929501
 20
159.4932712404
 10
524.9178071153
 20
164.3166728107
 10
526.81305228
 20
168.8921935645
 10
528.6014561188
 20
173.2097752181
 10
530.279092176
 20
177.2599704353
 10
531.842272414
 20
181.0338087169
 10
533.2875546646
 20
184.5230348197
 10
534.6117687059
 20
187.7199597446
 10
535.8120013607
 20
190.6175799457
 10
536.8856113982
 20
193.2094879237
 10
537.8302407098
 20
195.4900510398
 10
538.6438180339
 20
197.4541730968
 10
539.3245477808
 20
199.0976221648
 10
539.8709323835
 20
200.416702756
 10
540.2817797494
 20
201.4085836498
 10
540.5561809075
 20
202.0710296718
 10
540.6935286355
 20
202.402640113
 10
540.7107059491
 20
202.4440951434
  0
LWPOLYLINE
  5
BB
330
1F
100
AcDbEntity
  8
0
  6
Continuous
 62
     7
370
    25
100
AcDbPolyline
 90
       23
 70
   128
 43
0.0
 10
540.7107059491
 20
25.6674028722
 10
540.6690087748
 20
25.684673318
 10
540.3357666564
 20
25.8227102247
 10
539.6710593832
 20
26.0980389801
 10
538.6784371567
 20
26.5091992704
 10
537.3631936145
 20
27.0539857236
 10
535.7323434782
 20
27.7295075146
 10
533.794589026
 20
28.5321511117
 10
531.560275389
 20
29.4576398817
 10
529.0413160455
 20
30.5010266391
 10
526.2511518431
 20
31.6567458001
 10
523.2046727669
 20
32.9186431853
 10
519.9181322587
 20
34.2799685684
 10
516.4090615344
 20
35.7334725348
 10
512.6961913538
 20
37.2713990299
 10
508.7993216348
 20
38.8855300633
 10
504.7392488104
 20
40.567267665
 10
500.5376373065
 20
42.3076338855
 10
496.216900332
 20
44.0973378507
 10
491.800091846
 20
45.9268428174
 10
487.3107789663
 20
47.786373624
 10
482.7729129811
 20
49.6660209981
 10
478.2107059491
 20
51.5557564584
  0
LWPOLYLINE
  5
BC
330
1F
100
AcDbEntity
  8
0
  6
Continuous
 62
     7
370
    25
100
AcDbPolyline
 90
       43
 70
   128
 43
0.0
 10
629.8851106894
 20
291.6185147849
 10
630.0116811526
 20
291.4919443218
 10
630.3906623852
 20
291.1129481879
 10
631.019893719
 20
290.4837317554
 10
631.8957690728
 20
289.6078415004
 10
633.0132667554
 20
288.4903438178
 10
634.3659792674
 20
287.137646207
 10
635.946158005
 20
285.557437667
 10
637.7447728646
 20
283.7588377086
 10
639.7515122426
 20
281.7520983306
 10
641.9548724425
 20
279.5487530319
 10
644.3422321808
 20
277.1613783923
 10
646.899941994
 20
274.6036834804
 10
649.6133093369
 20
271.8903012363
 10
652.466837002
 20
269.0367884723
 10
655.4441486132
 20
266.0594768611
 10
658.528197242
 20
262.9754133312
 10
661.7013250125
 20
259.8023004619
 10
664.9453525078
 20
256.5582580653
 10
668.2416979802
 20
253.261912593
 10
671.5714667571
 20
249.932128915
 10
674.9156151545
 20
246.5879805175
 10
678.2549802792
 20
243.248630294
 10
681.570414139
 20
239.9332113353
 10
684.8429475558
 20
236.6606779186
 10
688.0538199675
 20
233.4498055068
 10
691.1846582425
 20
230.3189523307
 10
694.2175064814
 20
227.2861189929
 10
697.1350048316
 20
224.3685908405
 10
699.9204490912
 20
221.5831763831
 10
702.5578801167
 20
218.9457304565
 10
705.0321881306
 20
216.4714224426
 10
707.3291872275
 20
214.1744084445
 10
709.4357494843
 20
212.0678610889
 10
711.3397900593
 20
210.1638205138
 10
713.0304013026
 20
208.4732241718
 10
714.4978974593
 20
207.0056982127
 10
715.7338891757
 20
205.7697362987
 10
716.731283499
 20
204.772312173
 10
717.4843732846
 20
204.0192372886
 10
717.9888520968
 20
203.5147733775
 10
718.2417993081
 20
203.2618112651
 10
718.2734642756
 20
203.2301611987
  0
LINE
  5
BD
330
1F
100
AcDbEntity
  8
0
  6
Continuous
 62
     7
370
    25
100
AcDbLine
 10
-150.3713590749
 20
-83.444248906
 30
0.0
 11
-150.3713590749
 21
328.5557515708
 31
0.0
  0
LINE
  5
BE
330
1F
100
AcDbEntity
  8
0
  6
Continuous
 62
     7
370
    25
100
AcDbLine
 10
-275.3713590749
 20
25.6674028722
 30
0.0
 11
-275.3713590749
 21
-83.444248906
 31
0.0
  0
LINE
  5
BF
330
1F
100
AcDbEntity
  8
0
  6
Continuous
 62
     7
370
    25
100
AcDbLine
 10
-275.3713590749
 20
328.5557515708
 30
0.0
 11
-275.3713590749
 21
202.4440951434
 31
0.0
  0
LINE
  5
C0
330
1F
100
AcDbEntity
  8
0
  6
Continuous
 62
     7
370
    25
100
AcDbLine
 10
-452.9341174014
 20
203.2301611987
 30
0.0
 11
-275.3713590749
 21
25.6674028722
 31
0.0
  0
LINE
  5
C1
330
1F
100
AcDbEntity
  8
0
  6
Continuous
 62
     7
370
    25
100
AcDbLine
 10
-275.3713590749
 20
202.4440951434
 30
0.0
 11
-364.5457638152
 21
291.6185147849
 31
0.0
  0
LINE
  5
C2
330
1F
100
AcDbEntity
  8
0
  6
Continuous
 62
     7
370
    25
100
AcDbLine
 10
-275.3713590749
 20
-83.444248906
 30
0.0
 11
-150.3713590749
 21
-83.444248906
 31
0.0
  0
LINE
  5
C3
330
1F
100
AcDbEntity
  8
0
  6
Continuous
 62
     7
370
    25
100
AcDbLine
 10
-275.3713590749
 20
328.5557515708
 30
0.0
 11
-150.3713590749
 21
328.5557515708
 31
0.0
  0
LWPOLYLINE
  5
C4
330
1F
100
AcDbEntity
  8
0
  6
Continuous
 62
     7
370
    25
100
AcDbPolyline
 90
       35
 70
   128
 43
0.0
 10
-275.3713590749
 20
202.4440951434
 10
-275.3541817613
 20
202.402640113
 10
-275.2168340333
 20
202.0710296718
 10
-274.9424328752
 20
201.4085836498
 10
-274.5315855093
 20
200.416702756
 10
-273.9852009065
 20
199.0976221648
 10
-273.3044711597
 20
197.4541730968
 10
-272.4908938356
 20
195.4900510398
 10
-271.546264524
 20
193.2094879237
 10
-270.4726544864
 20
190.6175799457
 10
-269.2724218316
 20
187.7199597446
 10
-267.9482077904
 20
184.5230348197
 10
-266.5029255398
 20
181.0338087169
 10
-264.9397453017
 20
177.2599704353
 10
-263.2621092446
 20
173.2097752181
 10
-261.4737054057
 20
168.8921935645
 10
-259.5784602411
 20
164.3166728107
 10
-257.5805460758
 20
159.4932712404
 10
-255.4843475766
 20
154.4326133815
 10
-253.2944803782
 20
149.1458005992
 10
-251.0157501049
 20
143.6444557992
 10
-248.6531709976
 20
137.9406936256
 10
-246.2119398363
 20
132.0470310537
 10
-243.697415451
 20
125.9764320937
 10
-241.1151280351
 20
119.7422481862
 10
-238.4707567938
 20
113.3581585971
 10
-235.7701113172
 20
106.8382300226
 10
-233.0191297181
 20
100.1967675773
 10
-230.2238600053
 20
93.4483893005
 10
-227.3904442511
 20
86.6079218475
 10
-224.5251120724
 20
79.6904004899
 10
-221.6341638662
 20
72.7110393134
 10
-218.7239521839
 20
65.6851567117
 10
-215.8008754443
 20
58.6282349912
 10
-212.8713590749
 20
51.5557564584
  0
LWPOLYLINE
  5
C5
330
1F
100
AcDbEntity
  8
0
  6
Continuous
 62
     7
370
    25
100
AcDbPolyline
 90
       23
 70
   128
 43
0.0
 10
-212.8713590749
 20
51.5557564584
 10
-217.4335661068
 20
49.6660209981
 10
-221.971432092
 20
47.786373624
 10
-226.4607449718
 20
45.9268428174
 10
-230.8775534578
 20
44.0973378507
 10
-235.1982904322
 20
42.3076338855
 10
-239.3999019362
 20
40.567267665
 10
-243.4599747606
 20
38.8855300633
 10
-247.3568444796
 20
37.2713990299
 10
-251.0697146602
 20
35.7334725348
 10
-254.5787853844
 20
34.2799685684
 10
-257.8653258927
 20
32.9186431853
 10
-260.9118049689
 20
31.6567458001
 10
-263.7019691713
 20
30.5010266391
 10
-266.2209285147
 20
29.4576398817
 10
-268.4552421518
 20
28.5321511117
 10
-270.392996604
 20
27.7295075146
 10
-272.0238467403
 20
27.0539857236
 10
-273.3390902825
 20
26.5091992704
 10
-274.3317125089
 20
26.0980389801
 10
-274.9964197822
 20
25.8227102247
 10
-275.3296619005
 20
25.684673318
 10
-275.3713590749
 20
25.6674028722
  0
LWPOLYLINE
  5
C6
330
1F
100
AcDbEntity
  8
0
  6
Continuous
 62
     7
370
    25
100
AcDbPolyline
 90
       44
 70
   128
 43
0.0
 10
-452.9341174014
 20
203.2301611987
 10
-452.9024524338
 20
203.2618112651
 10
-452.6495052226
 20
203.5147733775
 10
-452.1450264104
 20
204.0192372886
 10
-451.3919366248
 20
204.772312173
 10
-450.3945423014
 20
205.7697362987
 10
-449.1585505851
 20
207.0056982127
 10
-447.6910544284
 20
208.4732241718
 10
-446.0004431851
 20
210.1638205138
 10
-444.0964026101
 20
212.0678610889
 10
-441.9898403533
 20
214.1744084445
 10
-439.6928412564
 20
216.4714224426
 10
-437.2185332425
 20
218.9457304565
 10
-434.581102217
 20
221.5831763831
 10
-431.7956579573
 20
224.3685908405
 10
-428.8781596072
 20
227.2861189929
 10
-425.8453113683
 20
230.3189523307
 10
-422.7144730933
 20
233.4498055068
 10
-419.5036006816
 20
236.6606779186
 10
-416.2310672648
 20
239.9332113353
 10
-412.915633405
 20
243.248630294
 10
-409.5762682803
 20
246.5879805175
 10
-406.2321198828
 20
249.932128915
 10
-402.902351106
 20
253.261912593
 10
-399.6060056336
 20
256.5582580653
 10
-396.3619781382
 20
259.8023004619
 10
-393.1888503678
 20
262.9754133312
 10
-390.104801739
 20
266.0594768611
 10
-387.1274901278
 20
269.0367884723
 10
-384.2739624627
 20
271.8903012363
 10
-381.5605951197
 20
274.6036834804
 10
-379.0028853066
 20
277.1613783923
 10
-376.6155255683
 20
279.5487530319
 10
-374.4121653683
 20
281.7520983306
 10
-372.4054259904
 20
283.7588377086
 10
-370.6068111308
 20
285.557437667
 10
-369.0266323931
 20
287.137646207
 10
-367.6739198811
 20
288.4903438178
 10
-366.5564221986
 20
289.6078415004
 10
-365.6805468447
 20
290.4837317554
 10
-365.051315511
 20
291.1129481879
 10
-364.6723342784
 20
291.4919443218
 10
-364.5457638152
 20
291.6185147849
 10
-364.5457638152
 20
291.6185147849
  0
LINE
  5
C7
330
1F
100
AcDbEntity
  8
0
  6
Continuous
 62
     7
370
    25
100
AcDbLine
 10
332.4535224708
 20
-213.0429856639
 30
0.0
 11
462.5801102021
 21
-438.4288463685
 31
0.0
  0
LINE
  5
C8
330
1F
100
AcDbEntity
  8
0
  6
Continuous
 62
     7
370
    25
100
AcDbLine
 10
535.6466217162
 20
-314.983756665
 30
0.0
 11
440.7066913467
 21
-150.5429892897
 31
0.0
  0
LINE
  5
C9
330
1F
100
AcDbEntity
  8
0
  6
Continuous
 62
     7
370
    25
100
AcDbLine
 10
587.5801080628
 20
-531.91502929
 30
0.0
 11
587.5801080628
 21
-195.5002144037
 31
0.0
  0
LINE
  5
CA
330
1F
100
AcDbEntity
  8
0
  6
Continuous
 62
     7
370
    25
100
AcDbLine
 10
462.5801102021
 20
-436.6294731325
 30
0.0
 11
462.5801102021
 21
-531.91502929
 31
0.0
  0
ELLIPSE
  5
CB
330
1F
100
AcDbEntity
  8
0
  6
Continuous
 62
     7
370
    25
100
AcDbEllipse
 10
525.0801091324
 20
-421.6820196855
 30
0.0
 11
62.27467251951089
 21
16.68644825292739
 31
0.0
210
0.0
220
0.0
230
1.0
 40
0.3177652438
 41
0.7004580896382415
 42
3.056652579830584
  0
ELLIPSE
  5
CC
330
1F
100
AcDbEntity
  8
0
  6
Continuous
 62
     7
370
    25
100
AcDbEllipse
 10
525.0801091324
 20
-421.6820196855
 30
0.0
 11
-40.28549911956481
 21
150.3475291403504
 31
0.0
210
0.0
220
0.0
230
1.0
 40
0.3178248929
 41
4.797329054143884
 42
5.412847070022955
  0
LWPOLYLINE
  5
CD
330
1F
100
AcDbEntity
  8
0
  6
Continuous
 62
     7
370
    25
100
AcDbPolyline
 90
       84
 70
   128
 43
0.0
 10
417.8301090081
 20
-163.7468685248
 10
414.3982603798
 20
-165.7280493635
 10
410.8070749322
 20
-167.8012590525
 10
407.0771157174
 20
-169.9545900054
 10
403.2297478951
 20
-172.1757565692
 10
399.287014267
 20
-174.4519965368
 10
395.271502251
 20
-176.7702696189
 10
391.2062108558
 20
-179.1173464121
 10
387.1144156782
 20
-181.4797159974
 10
383.0195543174
 20
-183.8438954381
 10
378.9450920314
 20
-186.1963126678
 10
374.9143676373
 20
-188.5235293015
 10
370.9504486323
 20
-190.8121782756
 10
367.0760732412
 20
-193.0491798124
 10
363.3133975353
 20
-195.2216927578
 10
359.6840007011
 20
-197.3172940419
 10
356.2086637691
 20
-199.323984769
 10
352.9072905886
 20
-201.230235846
 10
349.7987919235
 20
-203.0251765784
 10
346.9009721832
 20
-204.6984897316
 10
344.2304398603
 20
-206.2406092543
 10
341.8024731872
 20
-207.6426883487
 10
339.6309858924
 20
-208.8966922475
 10
337.7284244671
 20
-209.9954453707
 10
336.1056786032
 20
-210.9326708831
 10
334.7720495834
 20
-211.7029846117
 10
333.7351659872
 20
-212.3019924005
 10
333.000981057
 20
-212.7262186308
 10
332.5736910385
 20
-212.9732993951
 10
332.4557430829
 20
-213.0417345943
 10
332.6478089057
 20
-212.9312195095
 10
333.1487979573
 20
-212.642333027
 10
333.9558442518
 20
-212.1767520974
 10
335.0643063677
 20
-211.5371179122
 10
336.4678491066
 20
-210.7271226019
 10
338.1584342745
 20
-209.7513807351
 10
340.1263773157
 20
-208.615530471
 10
342.3603973628
 20
-207.3259978306
 10
344.8477067985
 20
-205.8902613463
 10
347.5740534027
 20
-204.3164627204
 10
350.5238168288
 20
-202.6136553179
 10
353.6801225325
 20
-200.7916045532
 10
357.0248681129
 20
-198.8607240295
 10
360.5388951932
 20
-196.8320736426
 10
364.2020993975
 20
-194.7172960916
 10
367.9934757902
 20
-192.5284933206
 10
371.891313805
 20
-190.2781626418
 10
375.8732901004
 20
-187.9792769753
 10
379.9165861092
 20
-185.6449128015
 10
383.9980566259
 20
-183.2885178481
 10
388.0943193694
 20
-180.9235430345
 10
392.1819103988
 20
-178.5635595877
 10
396.2374039689
 20
-176.2220560039
 10
400.2375929712
 20
-173.912467706
 10
404.1595495201
 20
-171.6480082283
 10
407.9808146138
 20
-169.4416935513
 10
411.6794903302
 20
-167.3060820222
 10
415.2344005122
 20
-165.2534857649
 10
418.625190866
 20
-163.2955965295
 10
421.8324211579
 20
-161.4436758092
 10
424.8377364353
 20
-159.7083099632
 10
427.6239065397
 20
-158.0994604073
 10
430.1749946939
 20
-156.6263175968
 10
432.4763680391
 20
-155.297319275
 10
434.51483988
 20
-154.1200805019
 10
436.278756613
 20
-153.1013556216
 10
437.7580056286
 20
-152.2469606917
 10
438.9441127761
 20
-151.5618267033
 10
439.830279242
 20
-151.0498322709
 10
440.4114368678
 20
-150.7139420253
 10
440.6842586866
 20
-150.5560788458
 10
440.6471641915
 20
-150.5771208106
 10
440.3003930929
 20
-150.7769802639
 10
439.6459052191
 20
-151.154479101
 10
438.6874648105
 20
-151.707494753
 10
437.4305614942
 20
-152.4328232983
 10
435.8823918446
 20
-153.3263361044
 10
434.051810651
 20
-154.3828741087
 10
431.9493230156
 20
-155.5964470478
 10
429.586969766
 20
-156.9600562584
 10
426.978276748
 20
-158.4658942862
 10
424.1381850193
 20
-160.1053730107
 10
421.0829599708
 20
-161.8690544307
 10
417.8301090081
 20
-163.7468685248
  0
LWPOLYLINE
  5
CE
330
1F
100
AcDbEntity
  8
0
  6
Continuous
 62
     7
370
    25
100
AcDbPolyline
 90
       76
 70
   128
 43
0.0
 10
412.1301059952
 20
-167.038479921
 10
409.0169573474
 20
-168.835679197
 10
405.746429733
 20
-170.7237770986
 10
402.3414582817
 20
-172.6895087705
 10
398.8259343297
 20
-174.7190936181
 10
395.2245216858
 20
-176.7982927129
 10
391.5624649953
 20
-178.9125194298
 10
387.8654685674
 20
-181.0469702335
 10
384.1594448114
 20
-183.1866360835
 10
380.4704049182
 20
-185.3165358823
 10
376.82422837
 20
-187.4217157143
 10
373.2464719619
 20
-189.4874199467
 10
369.7622552158
 20
-191.4991695479
 10
366.3959916936
 20
-193.4428077241
 10
363.1713020697
 20
-195.3047326102
 10
360.110821836
 20
-197.0718987989
 10
357.2359958358
 20
-198.7318873076
 10
354.5669939703
 20
-200.2730637527
 10
352.1225505136
 20
-201.6846102995
 10
349.9198007939
 20
-202.9566321338
 10
347.9741942654
 20
-204.0802076596
 10
346.2993812385
 20
-205.0474539085
 10
344.9071075131
 20
-205.851599556
 10
343.8071406215
 20
-206.4869666809
 10
343.0071881684
 20
-206.9491274351
 10
342.5128820265
 20
-207.2348645095
 10
342.3276703349
 20
-207.3421240054
 10
342.452846475
 20
-207.2701568928
 10
342.887556973
 20
-207.0195144602
 10
343.6287382801
 20
-206.5919023299
 10
344.6711852602
 20
-205.990359937
 10
346.0076025575
 20
-205.2190970489
 10
347.6286006443
 20
-204.2834960661
 10
349.5228183107
 20
-203.1901508192
 10
351.6769628359
 20
-201.9467217203
 10
354.0759318186
 20
-200.5619384401
 10
356.7028948369
 20
-199.0454919397
 10
359.5394198886
 20
-197.408034486
 10
362.5656189294
 20
-195.6610469654
 10
365.7602657528
 20
-193.8167830061
 10
369.1009435038
 20
-191.8881838204
 10
372.5642257786
 20
-189.8887614844
 10
376.1258221629
 20
-187.8325635907
 10
379.7607468197
 20
-185.7340029161
 10
383.4435055153
 20
-183.6078102805
 10
387.1482595976
 20
-181.4688668767
 10
390.8490347539
 20
-179.3322054145
 10
394.5198645743
 20
-177.2128177354
 10
398.1349973344
 20
-175.1255354191
 10
401.6690948758
 20
-173.0850488003
 10
405.0973432413
 20
-171.1056240827
 10
408.3957055563
 20
-169.2011398355
 10
411.5410563721
 20
-167.3850094267
 10
414.5113160082
 20
-165.6699452824
 10
417.2856586532
 20
-164.0679482303
 10
419.8446229998
 20
-162.5902922889
 10
422.170262393
 20
-161.2473284601
 10
424.2462607342
 20
-160.0484786392
 10
426.0580589213
 20
-159.0021504326
 10
427.5929523136
 20
-158.1156808732
 10
428.8401723915
 20
-157.3952892636
 10
429.7909552445
 20
-156.846025449
 10
430.4386548415
 20
-156.4717652396
 10
430.7787219571
 20
-156.2751130633
 10
430.8087515866
 20
-156.2574232397
 10
430.5285646061
 20
-156.4188623194
 10
429.9400997705
 20
-156.7582889234
 10
429.047503276
 20
-157.2733115125
 10
427.8570352468
 20
-157.9603302024
 10
426.3770262708
 20
-158.8145010038
 10
424.6178787171
 20
-159.8298688818
 10
422.5919152706
 20
-160.9992848553
 10
420.3133591755
 20
-162.3145512217
 10
417.79819199
 20
-163.7664428387
 10
415.0640462432
 20
-165.3447690836
 10
412.1301059952
 20
-167.038479921
  0
LWPOLYLINE
  5
CF
330
1F
100
AcDbEntity
  8
0
  6
Continuous
 62
     7
370
    25
100
AcDbPolyline
 90
       84
 70
   128
 43
0.0
 10
480.8859353083
 20
-557.4277827845
 10
477.670155133
 20
-555.4252182316
 10
474.7259369809
 20
-553.2879880835
 10
472.0701402499
 20
-551.0283372248
 10
469.7179792937
 20
-548.65920625
 10
467.6829305671
 20
-546.1941656952
 10
465.9766470153
 20
-543.6473362017
 10
464.6088988045
 20
-541.0333056395
 10
463.587530517
 20
-538.3670466101
 10
462.9183834424
 20
-535.6638290078
 10
462.6052903099
 20
-532.9391409442
 10
462.650050263
 20
-530.2085861025
 10
463.0524025181
 20
-527.4878046623
 10
463.8100474379
 20
-524.7923820585
 10
464.9186359942
 20
-522.1377577411
 10
466.3718277208
 20
-519.5391369756
 10
468.1612933465
 20
-517.0114041641
 10
470.2767872359
 20
-514.569038448
 10
472.706189536
 20
-512.2260285499
 10
475.4355825671
 20
-509.9957952189
 10
478.4493346228
 20
-507.8911124402
 10
481.7301845107
 20
-505.9240373421
 10
485.2593412396
 20
-504.1058374402
 10
489.0165839533
 20
-502.446923823
 10
492.9803982497
 20
-500.9568028702
 10
497.1280755385
 20
-499.6440067293
 10
501.4358601438
 20
-498.516057057
 10
505.8790757442
 20
-497.5794133158
 10
510.4322722288
 20
-496.8394396994
 10
515.0693738691
 20
-496.3003773806
 10
519.7638110284
 20
-495.9653110558
 10
524.4887045541
 20
-495.8361628629
 10
529.2169829986
 20
-495.9136703309
 10
533.9215643776
 20
-496.1973909424
 10
538.575506318
 20
-496.6856975713
 10
543.152146987
 20
-497.3757959707
 10
547.6252697277
 20
-498.2637316157
 10
551.9692584759
 20
-499.3444185969
 10
556.1592268345
 20
-500.6116685125
 10
560.1711787588
 20
-502.058219362
 10
563.9821313748
 20
-503.6757881989
 10
567.570255249
 20
-505.4551095286
 10
570.9150008294
 20
-507.3859900522
 10
573.9972097392
 20
-509.4573698743
 10
576.7992247537
 20
-511.6573859908
 10
579.3049958262
 20
-513.9734365382
 10
581.5001749182
 20
-516.3922537856
 10
583.3721825125
 20
-518.8999851114
 10
584.9102988217
 20
-521.4822639042
 10
586.1057138373
 20
-524.1243023251
 10
586.9515773793
 20
-526.8109658201
 10
587.4430491456
 20
-529.5268628406
 10
587.5773105657
 20
-532.256439886
 10
587.3535950938
 20
-534.9840628593
 10
586.7731803063
 20
-537.6941037465
 10
585.8393958041
 20
-540.3710455431
 10
584.5575850174
 20
-542.9995499244
 10
582.9350946688
 20
-545.5645636926
 10
580.9812168212
 20
-548.0513948116
 10
578.7071408044
 20
-550.4457979441
 10
576.1258959215
 20
-552.7340592304
 10
573.2522618868
 20
-554.9030692804
 10
570.1027060174
 20
-556.940408094
 10
566.6952628017
 20
-558.8344024195
 10
563.0494502639
 20
-560.5742044485
 10
559.1861542256
 20
-562.1498495068
 10
555.127502276
 20
-563.5523136023
 10
550.8967423535
 20
-564.7735622297
 10
546.5181062617
 20
-565.8065987466
 10
542.0166753267
 20
-566.6455084737
 10
537.4182328833
 20
-567.285483025
 10
532.7491180773
 20
-567.7228621273
 10
528.0360757186
 20
-567.9551351401
 10
523.3061034976
 20
-567.9809745111
 10
518.5862939354
 20
-567.8002296929
 10
513.9036763329
 20
-567.4139393092
 10
509.2850797933
 20
-566.8243159473
 10
504.7569554153
 20
-566.034731712
 10
500.3452393158
 20
-565.0497151841
 10
496.0752011646
 20
-563.8749065608
 10
491.9713012805
 20
-562.517032944
 10
488.0570470681
 20
-560.9838741253
 10
484.354854724
 20
-559.2842131644
 10
480.8859353083
 20
-557.4277827845
  0
LWPOLYLINE
  5
D0
330
1F
100
AcDbEntity
  8
0
  6
Continuous
 62
     7
370
    25
100
AcDbPolyline
 90
       41
 70
   128
 43
0.0
 10
463.3672078664
 20
-189.7921373902
 10
463.8100474379
 20
-188.3775671722
 10
464.9186359942
 20
-185.7229428548
 10
466.3718277208
 20
-183.1243220893
 10
468.1612933465
 20
-180.5965892778
 10
470.2767872359
 20
-178.1542235618
 10
472.706189536
 20
-175.8112136636
 10
475.4355825671
 20
-173.5809803326
 10
478.4493346228
 20
-171.4762975539
 10
481.7301845107
 20
-169.5092224558
 10
485.2593412396
 20
-167.6910225539
 10
489.0165839533
 20
-166.0321089367
 10
492.9803982497
 20
-164.5419879839
 10
497.1280755385
 20
-163.229191843
 10
501.4358601438
 20
-162.1012421707
 10
505.8790757442
 20
-161.1645984295
 10
510.4322722288
 20
-160.4246248131
 10
515.0693738691
 20
-159.8855624943
 10
519.7638110284
 20
-159.5504961695
 10
524.4887045541
 20
-159.4213479766
 10
529.2169829986
 20
-159.4988554446
 10
533.9215643776
 20
-159.7825760561
 10
538.575506318
 20
-160.270882685
 10
543.152146987
 20
-160.9609810844
 10
547.6252697277
 20
-161.8489167294
 10
551.9692584759
 20
-162.9296037106
 10
556.1592268345
 20
-164.1968536262
 10
560.1711787588
 20
-165.6434044757
 10
563.9821313748
 20
-167.2609733126
 10
567.570255249
 20
-169.0402946423
 10
570.9150008294
 20
-170.9711751659
 10
573.9972097392
 20
-173.042554988
 10
576.7992247537
 20
-175.2425711045
 10
579.3049958262
 20
-177.5586216519
 10
581.5001749182
 20
-179.9774388993
 10
583.3721825125
 20
-182.4851702251
 10
584.9102988217
 20
-185.0674490179
 10
586.1057138373
 20
-187.7094874388
 10
586.9515773793
 20
-190.3961509338
 10
587.4430491456
 20
-193.1120479543
 10
587.5801080628
 20
-195.5002144037
  0
LWPOLYLINE
  5
D1
330
1F
100
AcDbEntity
  8
0
  6
Continuous
 62
     7
370
    25
100
AcDbPolyline
 90
       76
 70
   128
 43
0.0
 10
488.9469520912
 20
-552.7742568488
 10
486.05013268
 20
-550.9556449855
 10
483.4270781234
 20
-549.0034780027
 10
481.0961927646
 20
-546.9314461898
 10
479.0738183857
 20
-544.7540868539
 10
477.374150572
 20
-542.4866691291
 10
476.0091023937
 20
-540.145100074
 10
474.9882517221
 20
-537.7458030175
 10
474.3187608873
 20
-535.3056073098
 10
474.0053253116
 20
-532.8416274284
 10
474.0501405825
 20
-530.3711496872
 10
474.4528945498
 20
-527.9115014588
 10
475.2107620575
 20
-525.4799340815
 10
476.3184299687
 20
-523.0935050074
 10
477.7681208726
 20
-520.7689515856
 10
479.5496747446
 20
-518.5225800528
 10
481.6505930685
 20
-516.3701488212
 10
484.0561356425
 20
-514.3267517666
 10
486.749434343
 20
-512.4067251816
 10
489.7115940463
 20
-510.6235347703
 10
492.9218381671
 20
-508.9896885895
 10
496.3576489285
 20
-507.5166469484
 10
499.9949265648
 20
-506.2147426681
 10
503.8081600496
 20
-505.0931068534
 10
507.7705999636
 20
-504.1596086358
 10
511.8544570457
 20
-503.4207952972
 10
516.0310793413
 20
-502.8818477896
 10
520.2711747908
 20
-502.54654652
 10
524.5449995729
 20
-502.4172447386
 10
528.8225806928
 20
-502.49484953
 10
533.0739095945
 20
-502.7788134501
 10
537.2691686997
 20
-503.2671482116
 10
541.3789302885
 20
-503.9564269652
 10
545.3743659166
 20
-504.8418169942
 10
549.2274525394
 20
-505.9171044258
 10
552.9111628319
 20
-507.1747493552
 10
556.3996601173
 20
-508.6059284249
 10
559.6684722232
 20
-510.200604776
 10
562.694671264
 20
-511.9475922966
 10
565.4570310332
 20
-513.8346373584
 10
567.936174517
 20
-515.848503975
 10
570.114715482
 20
-517.9750646617
 10
571.9773697688
 20
-520.1994042226
 10
573.5110764639
 20
-522.5059201151
 10
574.7050716575
 20
-524.87843498
 10
575.5509839318
 20
-527.3003065104
 10
576.0428771666
 20
-529.7545464454
 10
576.1773071741
 20
-532.2239414634
 10
575.9533256503
 20
-534.6911679937
 10
575.3725038822
 20
-537.1389229947
 10
574.4389182604
 20
-539.550035724
 10
573.1591173516
 20
-541.9075962354
 10
571.5420758002
 20
-544.1950641077
 10
569.5991350598
 20
-546.3963969418
 10
567.3439263432
 20
-548.4961526266
 10
564.7922669016
 20
-550.4796039602
 10
561.9620556454
 20
-552.332838444
 10
558.8731445635
 20
-554.0428568419
 10
555.5472005935
 20
-555.5976650867
 10
552.0075495463
 20
-556.9863552556
 10
548.2790253001
 20
-558.199189588
 10
544.3877740474
 20
-559.2276587468
 10
540.3610931166
 20
-560.0645474919
 10
536.2272287988
 20
-560.7039905661
 10
532.0151741745
 20
-561.1414981657
 10
527.7544768186
 20
-561.374003082
 10
523.4750201639
 20
-561.3998743872
 10
519.2068193519
 20
-561.2189318809
 10
514.9798184014
 20
-560.8324430486
 10
510.8236636691
 20
-560.2431185
 10
506.7675076032
 20
-559.4550929603
 10
502.8397993266
 20
-558.4738956168
 10
499.0680936584
 20
-557.3064037386
 10
495.4788403804
 20
-555.9608122627
 10
492.0972215759
 20
-554.446555099
 10
488.9469520912
 20
-552.7742568488
  0
ENDSEC
  0
SECTION
  2
OBJECTS
  0
DICTIONARY
  5
C
330
0
100
AcDbDictionary
281
     1
  3
ACAD_GROUP
350
D
  3
ACAD_LAYOUT
350
1A
  3
ACAD_MLINESTYLE
350
17
  3
ACAD_PLOTSETTINGS
350
19
  3
ACAD_PLOTSTYLENAME
350
E
  3
ACAD_SCALELIST
350
47
  0
DICTIONARY
  5
D
102
{ACAD_REACTORS
330
C
102
}
330
C
100
AcDbDictionary
281
     1
  0
DICTIONARY
  5
1A
102
{ACAD_REACTORS
330
C
102
}
330
C
100
AcDbDictionary
281
     1
  3
Layout1
350
1E
  3
Layout2
350
26
  3
Model
350
22
  0
DICTIONARY
  5
17
102
{ACAD_REACTORS
330
C
102
}
330
C
100
AcDbDictionary
281
     1
  3
Standard
350
18
  0
DICTIONARY
  5
19
102
{ACAD_REACTORS
330
C
102
}
330
C
100
AcDbDictionary
281
     1
  0
ACDBDICTIONARYWDFLT
  5
E
102
{ACAD_REACTORS
330
C
102
}
330
C
100
AcDbDictionary
281
     1
  3
Normal
350
F
100
AcDbDictionaryWithDefault
340
F
  0
DICTIONARY
  5
47
102
{ACAD_REACTORS
330
C
102
}
330
C
100
AcDbDictionary
281
     1
  3
A0
350
48
  3
A1
350
49
  3
A2
350
4A
  3
A3
350
4B
  3
A4
350
4C
  3
A5
350
4D
  3
A6
350
4E
  3
A7
350
4F
  3
A8
350
50
  3
A9
350
51
  3
B0
350
52
  3
B1
350
53
  3
B2
350
54
  3
B3
350
55
  3
B4
350
56
  3
B5
350
57
  3
B6
350
58
  3
B7
350
59
  3
B8
350
5A
  3
B9
350
5B
  3
C0
350
5C
  3
C1
350
5D
  3
C2
350
5E
  3
C3
350
5F
  3
C4
350
60
  3
C5
350
61
  3
C6
350
62
  3
C7
350
63
  3
C8
350
64
  3
C9
350
65
  3
D0
350
66
  3
D1
350
67
  3
D2
350
68
  0
LAYOUT
  5
1E
102
{ACAD_REACTORS
330
1A
102
}
330
1A
100
AcDbPlotSettings
  1

  2
none_device
  4

  6

 40
0.0
 41
0.0
 42
0.0
 43
0.0
 44
0.0
 45
0.0
 46
0.0
 47
0.0
 48
0.0
 49
0.0
140
0.0
141
0.0
142
1.0
143
1.0
 70
   688
 72
     1
 73
     0
 74
     5
  7

 75
    16
147
1.0
148
0.0
149
0.0
100
AcDbLayout
  1
Layout1
 70
     1
 71
     1
 10
0.0
 20
0.0
 11
420.0
 21
297.0
 12
0.0
 22
0.0
 32
0.0
 14
1.0000000000E+20
 24
1.0000000000E+20
 34
1.0000000000E+20
 15
-1.0000000000E+20
 25
-1.0000000000E+20
 35
-1.0000000000E+20
146
0.0
 13
0.0
 23
0.0
 33
0.0
 16
1.0
 26
0.0
 36
0.0
 17
0.0
 27
1.0
 37
0.0
 76
     0
330
1B
  0
LAYOUT
  5
26
102
{ACAD_REACTORS
330
1A
102
}
330
1A
100
AcDbPlotSettings
  1

  2
none_device
  4

  6

 40
0.0
 41
0.0
 42
0.0
 43
0.0
 44
0.0
 45
0.0
 46
0.0
 47
0.0
 48
0.0
 49
0.0
140
0.0
141
0.0
142
1.0
143
1.0
 70
   688
 72
     1
 73
     0
 74
     5
  7

 75
    16
147
1.0
148
0.0
149
0.0
100
AcDbLayout
  1
Layout2
 70
     1
 71
     2
 10
0.0
 20
0.0
 11
0.0
 21
0.0
 12
0.0
 22
0.0
 32
0.0
 14
0.0
 24
0.0
 34
0.0
 15
0.0
 25
0.0
 35
0.0
146
0.0
 13
0.0
 23
0.0
 33
0.0
 16
1.0
 26
0.0
 36
0.0
 17
0.0
 27
1.0
 37
0.0
 76
     0
330
23
  0
LAYOUT
  5
22
102
{ACAD_REACTORS
330
1A
102
}
330
1A
100
AcDbPlotSettings
  1

  2
none_device
  4
Letter_(8.50_x_11.00_Inches)
  6

 40
6.35
 41
6.35
 42
6.35000508
 43
6.35000508
 44
215.9
 45
279.4
 46
0.0
 47
0.0
 48
0.0
 49
0.0
140
0.0
141
0.0
142
1.0
143
1.0
 70
  1712
 72
     1
 73
     0
 74
     0
  7

 75
     0
147
1.0
148
0.0
149
0.0
100
AcDbLayout
  1
Model
 70
     1
 71
     0
 10
0.0
 20
0.0
 11
279.4
 21
215.9
 12
0.0
 22
0.0
 32
0.0
 14
0.0
 24
0.0
 34
0.0
 15
279.4
 25
215.9
 35
0.0
146
0.0
 13
0.0
 23
0.0
 33
0.0
 16
1.0
 26
0.0
 36
0.0
 17
0.0
 27
1.0
 37
0.0
 76
     0
330
1F
331
29
  0
MLINESTYLE
  5
18
102
{ACAD_REACTORS
330
17
102
}
330
17
100
AcDbMlineStyle
  2
Standard
 70
     0
  3

 62
   256
 51
90.0
 52
90.0
 71
     2
 49
0.5
 62
   256
  6
BYLAYER
 49
-0.5
 62
   256
  6
BYLAYER
  0
ACDBPLACEHOLDER
  5
F
102
{ACAD_REACTORS
330
E
102
}
330
E
  0
SCALE
  5
48
102
{ACAD_REACTORS
330
47
102
}
330
47
100
AcDbScale
 70
     0
300
1:1
140
1.0
141
1.0
290
     1
  0
SCALE
  5
49
102
{ACAD_REACTORS
330
47
102
}
330
47
100
AcDbScale
 70
     0
300
1:2
140
1.0
141
2.0
290
     0
  0
SCALE
  5
4A
102
{ACAD_REACTORS
330
47
102
}
330
47
100
AcDbScale
 70
     0
300
1:4
140
1.0
141
4.0
290
     0
  0
SCALE
  5
4B
102
{ACAD_REACTORS
330
47
102
}
330
47
100
AcDbScale
 70
     0
300
1:5
140
1.0
141
5.0
290
     0
  0
SCALE
  5
4C
102
{ACAD_REACTORS
330
47
102
}
330
47
100
AcDbScale
 70
     0
300
1:8
140
1.0
141
8.0
290
     0
  0
SCALE
  5
4D
102
{ACAD_REACTORS
330
47
102
}
330
47
100
AcDbScale
 70
     0
300
1:10
140
1.0
141
10.0
290
     0
  0
SCALE
  5
4E
102
{ACAD_REACTORS
330
47
102
}
330
47
100
AcDbScale
 70
     0
300
1:16
140
1.0
141
16.0
290
     0
  0
SCALE
  5
4F
102
{ACAD_REACTORS
330
47
102
}
330
47
100
AcDbScale
 70
     0
300
1:20
140
1.0
141
20.0
290
     0
  0
SCALE
  5
50
102
{ACAD_REACTORS
330
47
102
}
330
47
100
AcDbScale
 70
     0
300
1:30
140
1.0
141
30.0
290
     0
  0
SCALE
  5
51
102
{ACAD_REACTORS
330
47
102
}
330
47
100
AcDbScale
 70
     0
300
1:40
140
1.0
141
40.0
290
     0
  0
SCALE
  5
52
102
{ACAD_REACTORS
330
47
102
}
330
47
100
AcDbScale
 70
     0
300
1:50
140
1.0
141
50.0
290
     0
  0
SCALE
  5
53
102
{ACAD_REACTORS
330
47
102
}
330
47
100
AcDbScale
 70
     0
300
1:100
140
1.0
141
100.0
290
     0
  0
SCALE
  5
54
102
{ACAD_REACTORS
330
47
102
}
330
47
100
AcDbScale
 70
     0
300
2:1
140
2.0
141
1.0
290
     0
  0
SCALE
  5
55
102
{ACAD_REACTORS
330
47
102
}
330
47
100
AcDbScale
 70
     0
300
4:1
140
4.0
141
1.0
290
     0
  0
SCALE
  5
56
102
{ACAD_REACTORS
330
47
102
}
330
47
100
AcDbScale
 70
     0
300
8:1
140
8.0
141
1.0
290
     0
  0
SCALE
  5
57
102
{ACAD_REACTORS
330
47
102
}
330
47
100
AcDbScale
 70
     0
300
10:1
140
10.0
141
1.0
290
     0
  0
SCALE
  5
58
102
{ACAD_REACTORS
330
47
102
}
330
47
100
AcDbScale
 70
     0
300
100:1
140
100.0
141
1.0
290
     0
  0
SCALE
  5
59
102
{ACAD_REACTORS
330
47
102
}
330
47
100
AcDbScale
 70
     0
300
1/128" = 1'-0"
140
0.0078125
141
12.0
290
     0
  0
SCALE
  5
5A
102
{ACAD_REACTORS
330
47
102
}
330
47
100
AcDbScale
 70
     0
300
1/64" = 1'-0"
140
0.015625
141
12.0
290
     0
  0
SCALE
  5
5B
102
{ACAD_REACTORS
330
47
102
}
330
47
100
AcDbScale
 70
     0
300
1/32" = 1'-0"
140
0.03125
141
12.0
290
     0
  0
SCALE
  5
5C
102
{ACAD_REACTORS
330
47
102
}
330
47
100
AcDbScale
 70
     0
300
1/16" = 1'-0"
140
0.0625
141
12.0
290
     0
  0
SCALE
  5
5D
102
{ACAD_REACTORS
330
47
102
}
330
47
100
AcDbScale
 70
     0
300
3/32" = 1'-0"
140
0.09375
141
12.0
290
     0
  0
SCALE
  5
5E
102
{ACAD_REACTORS
330
47
102
}
330
47
100
AcDbScale
 70
     0
300
1/8" = 1'-0"
140
0.125
141
12.0
290
     0
  0
SCALE
  5
5F
102
{ACAD_REACTORS
330
47
102
}
330
47
100
AcDbScale
 70
     0
300
3/16" = 1'-0"
140
0.1875
141
12.0
290
     0
  0
SCALE
  5
60
102
{ACAD_REACTORS
330
47
102
}
330
47
100
AcDbScale
 70
     0
300
1/4" = 1'-0"
140
0.25
141
12.0
290
     0
  0
SCALE
  5
61
102
{ACAD_REACTORS
330
47
102
}
330
47
100
AcDbScale
 70
     0
300
3/8" = 1'-0"
140
0.375
141
12.0
290
     0
  0
SCALE
  5
62
102
{ACAD_REACTORS
330
47
102
}
330
47
100
AcDbScale
 70
     0
300
1/2" = 1'-0"
140
0.5
141
12.0
290
     0
  0
SCALE
  5
63
102
{ACAD_REACTORS
330
47
102
}
330
47
100
AcDbScale
 70
     0
300
3/4" = 1'-0"
140
0.75
141
12.0
290
     0
  0
SCALE
  5
64
102
{ACAD_REACTORS
330
47
102
}
330
47
100
AcDbScale
 70
     0
300
1" = 1'-0"
140
1.0
141
12.0
290
     0
  0
SCALE
  5
65
102
{ACAD_REACTORS
330
47
102
}
330
47
100
AcDbScale
 70
     0
300
1-1/2" = 1'-0"
140
1.5
141
12.0
290
     0
  0
SCALE
  5
66
102
{ACAD_REACTORS
330
47
102
}
330
47
100
AcDbScale
 70
     0
300
3" = 1'-0"
140
3.0
141
12.0
290
     0
  0
SCALE
  5
67
102
{ACAD_REACTORS
330
47
102
}
330
47
100
AcDbScale
 70
     0
300
6" = 1'-0"
140
6.0
141
12.0
290
     0
  0
SCALE
  5
68
102
{ACAD_REACTORS
330
47
102
}
330
47
100
AcDbScale
 70
     0
300
1'-0" = 1'-0"
140
12.0
141
12.0
290
     0
  0
ENDSEC
  0
EOF
